blank Tabs for Worship blank Home | Blog | Submit Tab

:: Worship Tabs > I > Indescribable > Bass Tab

Indescribable

Bass Tab

[Printable version]

Like this song? -->

Intro
G ------------------------------------------------
D ------------------------2-------------------1---
A ----------------------2-----------------------2-
E 0-----------------------------------------------

Verse 1
G ------------------------------------------------------------------------------------------------
D ------------------------------------------------------------------------------------------------
A ------------------1-----2---------------------2-4-----------------2-----0-----------------0-2-0-
E 4-------------------------------------------4--------------------------------------------------- 

G ------------------------------------------------------------------------------------------------
D ------------------------------------------------------------------------------------------------
A ------------------1-----2---------------------2-4-----------------2-----0-----------------1-----
E 4-------------------------------------------4---------------------------------------4-----------

Chorus
G ------------------------------------------------------------------------------------------------
D ------------------------------------2-----------------------1-----------2-----------------------
A 2-------2-4-----------------------2-------2-1-----------2-4---------4-2----------------------1--
E ------------2-------4-2-0---------------------2-4-----------------------------------0--2--4-----

G ------------------------------------------------------------------------------------------------
D ------------------------------------2-----------------------1---------1-2-----------------------
A 2-------2-4-----------------------2-------2-1-----------2-4---------4---------------------------
E ------------2-------4-2-0---------------------2-4-----------------------------------------------

Verse 2
G ------------------------------------------------------------------------------------------------
D ------------------------------------------------------------------------------------------------
A ------------------1-----2--2-22-2---2--2-22-2-2-4--4-44-4-4-4-4-42-2-2-0--0-00-0-0-0--0-00-2-4-
E 4----------------------------------------------------------------------------------------------- 

G ------------------------------------------------------------------------------------------------
D ------------------------------------------------------------------------------------------2-1---
A ------------------1-1-1-2--2-22-2-2-2--2-22-2-2-4--4-44-4-4-4-4-42-2-2-0--0-00-0-0-----------4-
E 4--4-44-4-4-4--4-4------------------------------------------------------------------0-2-4------- 

Chorus 2
G ------------------------------------------------------------------------------------------------
D ------------------------------------2-----------------------1-----------2-----------------------
A 2-------2-4-----------------------2-------2-1-----------2-4---------4-2----------------------1--
E ------------2-------4-2-0---------------------2-4-----------------------------------0--2--4-----

G ------------------------------------------------------------------------------------------------
D ------------------------------------2-----------------------1---------1-2-----------4--2--1-----
A 2-------2-4-----------------------2-------2-1-----------2-4---------4------------------------2--
E ------------2-------4-2-0---------------------2-4-----------------------------------------------

Bridge
G ------------------------------------------------------------------------------------------------
D -------------------------------------------------0----------024-2-0-------------------------2-4-
A 4------------4---4-2---2-0-------------------2-4-----------4--------4-3-------------------------
E ---------------4-----2--------------------------------------------------------------------------

Chorus 3
G ------------------------------------------------------------------------------------------------
D ------------------------------------------------------------1-----------2-----------------------
A 2-----------------------------------------2-1-----------2-4---------4-2----------------------1--
E ------------2-----------0-----2-----4---------2-4-----------------------------------0--2--4-----

G ------------------------------------------------------------------------------------------------
D ------------------------------------2-----------------------1---------1-2-----------2--1-----1--
A 2-------2-4-----------------------2-------2-1-----------2-4---------4---------------------4-----
E ------------2-------4-2-0---------------------2-4-----------------------------------------------

Chorus 4
G ------------------------------------------------------------------------------------------------
D ------------------------------------2-----------------------1-----------2-----------------------
A 2-------2-4-----------------------2-------2-1-----------2-4---------4-2----------------------1--
E ------------2-------4-2-0---------------------2-4-----------------------------------0--2--4-----

G ------------------------------------------------------------------------------------------------
D ------------------------------2-----------------------------1---------1-2-----------------------
A 2-------2-4------------------------------/7-6-----------2-4---------4---------------------------
E ------------2-------4-2-0-----------0---------7-4-----------------------------------------------

All songs owned by corresponding publishing company. If you make copies of any song on this website, be sure to report your usage to CCLI.




blankTabsForWorship © 2014 | Privacy Statement