blank Tabs for Worship blank Home | Blog | Submit Tab

:: Worship Tabs > H > Hosanna (Praise is Rising) > Tab

Hosanna (Praise is Rising)

Tab

[Printable version]

Like this song? -->

	1G     1C      1D     1E      2G     2C      2D     2E
e|--------------------------------------------------------------|
B|------------(17)----(19)------------------(5)-----(7)---------|
G|-----(17)----17------19----(14)----(5)-----5-------7-----(2)--|
D|------17-----17------19-----14------5------5-------7------2---|Chords Used
A|------17-----15------17-----14------5------3-------5------2---|
E|------15--------------------12------3---------------------0---|


Intro
What I would do here is get yourself a delay, be it pedal or amp
Set it to a steady delay were it dissipates. This can usually be done on
a distortion pedal.
   Tremolo pick, or just quickly up down strum.
   TE TE TE TE TE TE
e|--------------------|
B|--------------------|
G|-11h12h14p11h12h14--|x2 This is for the first G
D|--------------------|   Until the C
A|--------------------|
E|--------------------|

   TE TE TE TE TE TE
e|--------------------|
B|--------------------|
G|--------------------|x2 This is for the first C
D|-10h12h14p10h12h14--|   Until G
A|--------------------|
E|--------------------|

   TE TE TE TE TE TE
e|--------------------|
B|--------------------|
G|-11h12h14p11h12h14--|x2 This is for the Second G
D|--------------------|
A|--------------------|
E|--------------------|

Repeat these three hooks until the chorus, when it comes to the D  C  G part
this works as well. Just play this part once, let the 16 ring out until the C
  D                        C
   TQ    TQ    TQ    H      TQ    TQ    TQ    H
e|------------------------|------------------------|
B|------------------------|------------------------|
G|------------------------|------------------------|
D|-12h===14h===16===(16)--|-10h===12h===14===(14)--|
A|------------------------|------------------------|
E|------------------------|------------------------|

After the 14 rings out go back to the rapid strumming
   TE TE TE TE TE TE
e|-------------------|
B|-------------------|
G|-11h12h14p11h12h14-| x2 Until D then repeat until the build up,
D|-----------------------| When you get to the build up, move from the G
A|-----------------------| To the D and rapidly strum the D.
E|-----------------------|

When you get into the Chorus, you'll want to play high on the neck just
because that is the song sounds, play around with different triads, and
talk with your bassist and let them have insight on your ideas so they
can grow and flourish :D

On the first Hosanna just repeat the 1G chord with or without palm mutes,
up to you. that 1G is not an actual chord, it is just a variation of a G
chord, you won't find 1G in a book not that I know of o.O
  1G 1G  1G  1E 1E  1C
  //  /////  //  /////
  Ho San-na, Ho San-na
   1G                        1D
  / / / / / / / / / / / / / / /
  You are the God that saves us
            1E       1C
  / / / / / / / / / / / / / / /
  Worthy of all our praises
Repeat with the second verse of that Chorus

Repeat everything until the Solo, here is the basics of the solo, not
the actual, you express the song for what it is at that point in time,
not what you hear, if you are this slowly at worship, use it slowly,
if fast, use it fast, remember follow the drummer don't lose track
of your self! No sermon solo's either (meaning no 20 minute solos)
e|---------------------------------------------|
B|---------------------------12-12-12-15-15-15-|
G|/11h12=p11h12p=11h14-14-14-------------------|
D|---------------------------------------------|
A|---------------------------------------------|
E|---------------------------------------------|

e|-------------------------------------------------------------------------|
B|------------------------------------15------15b17(15)-15-15b17(15)-12----|
G|-11h12p=11h12p=11h12h14-14-14-11h12----11h12--------------------------14-|
D|-------------------------------------------------------------------------|
A|-------------------------------------------------------------------------|
E|-------------------------------------------------------------------------|
                                                        (delay here)
e|-----------------------------------------------------------------------------|
B|--15-15b17(15)-12----13-12----15-15b17(15)-12----------15-------15-12--------|
G|------------------14-------12-----------------14-11h12----11h12-------14--12-|
D|-----------------------------------------------------------------------------|
A|-----------------------------------------------------------------------------|
E|-----------------------------------------------------------------------------|

All songs owned by corresponding publishing company. If you make copies of any song on this website, be sure to report your usage to CCLI.




blankTabsForWorship © 2014 | Privacy Statement