blank Tabs for Worship blank Home | Blog | Submit Tab

:: Worship Tabs > W > Washed By the Water > Chords

Washed By the Water

Chords

[Printable version]

Like this song? -->

Intro
B E D#m C#

Verse
B                    D#m E
Daddy was a preacher 
E               F# G G#
She was his wife
G#
Just tryin to make the world a little better
C#                B    E B
You know, shine a light
B                     D#m E
People started talking
E                            F# G G#
Trying to hear their own voice 
G#
Those people tried to accuse me father 
         C#             B     E B 
Said he made the wrong choice


B                          D#m E
Though it might be painful 
E                                   F# G G#
You know that time will always tell
G#
Those people have long since gone 
    C#           B     E B
My father never failed


Chorus 
B
Even when the rain falls
E
Even when the flood starts rising
B
Even when the storm comes   
E     (C#)                  B (G#Minor)  (When going to the bridge)
I am washed by the water water


Bridge

G#Minor    Emaj                       B
Even if the Earth crumbles under my feet 

G#Minor         Emaj                        B
Even if the ones I turn around and crucify me 

F#Minor
I Won't fall

F#Minor
I won't fall

F#Minor       E                       B
I won't fall as long as you're around me

Outro
B E D# C# B 2x

   B       E      D#m     C#       F#      G       G#     Emaj  
|-----| |-----| |-----| |-----| |-----| |-----| |-----| |--0--| 
|-----| |-----| |-----| |-----| |-----| |-----| |-----| |--0--|
|-----| |--9--| |--8--| |--6--| |--11-| |--12-| |--13-| |--1--|
|--9--| |--9--| |--8--| |--6--| |--11-| |--12-| |--13-| |--2--|
|--9--| |--7--| |--6--| |--4--| |--9--| |--10-| |--11-| |--2--|
|--7--| |--x--| |--x--| |--x--| |--x--| |--x--| |--x--| |--0--|
F#Minor G#Minor
|--2--| |--4--|           x=Mute the string
|--2--| |--4--|
|--3--| |--4--|
|--4--| |--6--|
|--4--| |--6--|
|--2--| |--4--|

All songs owned by corresponding publishing company. If you make copies of any song on this website, be sure to report your usage to CCLI.




blankTabsForWorship © 2014 | Privacy Statement