blank Tabs for Worship blank Home | Blog | Submit Tab

:: Worship Tabs > C > Consuming Fire > Chords/Tab

Consuming Fire

Chords/Tab

[Printable version]

Like this song? -->

     Em          G         A      Em          G          A
     Set This place on fire,      send your spirt, our savior
      Em          G       A       Em           G       A
     Rescue From the mire,        Show your servant favor
     Asus2         A             G
     Yesterday was a day that I was alone,
          D/F#                       B7           B7
     Now I'm in the presence of an almighty God

     Chorus
                     Em           C     G                D
     And Yes our God             He is a Consuming fire    
                     Em          C       Cmaj7      A           A
     And the flames              Burning down deep in my soul
                  Em               C           G                D
     Yes our god,                He is    a Consuming fire
         Em      C           A                   A              Em G  A  Asus2
     He reaches inside and melts down this cold heart of stone


Interlude
Bm            D   Dsus             A               A         Em     Em 
Did you realize        That inside of you there is a flame 
Bm                D  Dsus              A        A       A       E
Did you really try         Let it burn     let it burn  Let it burn   Em G A  2x

Solo
---------------------------------------------------------------------------
---14b~---14b~---14b-----------------12-15-15b-12-13-(13b)-12----(14b)~~~--
---15b~---15b~---15b^12--12^15~~~~----------------------------12-----------
---------------------------------------------------------------------------
---------------------------------------------------------------------------
---------------------------------------------------------------------------

---------------------------------------------------------------------------
------------------------------------------------------14b--14b~~~----------
----11^9--12^9------14--------------------------------15b--15b~~~----------
---9-----9-----9/12----12/11-11^12-------12-14-12--12----------------------
-----------------------------------13/10---------14------------------------
---------------------------------------------------------------------------

 Strum this:
-0------0--0--0-----0------15----------------------------------------------
-15/17--15-13-12/14-14-------17-15----19b-17~~~~~~~~~~~~-------------------
-----------------------------------16--------------------------------------
---------------------------------------------------------------------------
---------------------------------------------------------------------------
---------------------------------------------------------------------------

Legend:
b= bend
()= slow bend
/= slide
^= hammer on or pull off
~= tremolo

All songs owned by corresponding publishing company. If you make copies of any song on this website, be sure to report your usage to CCLI.




blankTabsForWorship © 2014 | Privacy Statement